Random guitar tabs i made from hearing

I CAN SWING MY SWORD by Tobuscus

All power chords, standard B, use high-gain drive.

b |-------------------------------------------------------------
F#|-------------------------------------------------------------
D |----------------------------------------------14---14/16/14--
A |-----7---7/10-10---10-10/14---14-14---14-14---14---14/16/14--
E |-----7---7/10-10---10-10/14---14-14---14-14---12---12/14/12--
B |-----5---5/8--8----8--8-/12---12-12---12-12------------------
        E4  E4 G4 G4  G4 G4 B5   B4      B4 B4    E5   E5 F#5 E5
    

Flying Whales intro by Gojira

Drop D or Standard E, use high-gain drive. I got it absolutely randomly by having fun.

e |-------------------|------------
B |-------------------|------------
G |-------------------|------------
D |---0--5------------|---------5~-
A |---------6----3~---|---5--1-----
D |-------------------|------------
    

More open version

e |-------------------|------------
B |-------------------|------------
G |------0------------|---------0~-
D |---0-----1---------|---0--------
A |--------------3~---|------1-----
E |-------------------|------------
    

Funeralopolis by Electric Wizard

Not really *the* tab, more like second track for recording, or in case You play in standard E, and need to play this one without retuning. Proper version is played on single string in Standard B (I think).

e |------------------------------------------------------
B |------------------------------------------------------
G |------------------------------------------------------
D |---9~--9~--9/7-9-9-9---9/7--9-9-9---7--5-5-5---2-2----
A |---9~--9~--9/7-9-9-9---9/7--9-9-9---7--5-5-5---2-2----
E |---7~--7~--7/5-7-7-7---7/5--7-7-7---5--3-3-3---0-0----
  

Evangelion 3.0+1.0: Thrice Upon A Time guitar intro in first 10 minutes (Dailymotion)

Guitar starts at 2:32. Standard E, I think there are two tracks on top of each other, one is one octave higher and louder there are two guitars, or double picking on lower strings.
EVANGELION:3.0+1.0 THRICE UPON A TIME - 11170 CH edition 0706 - play at 0.75 speed
[Full Album] Evangelion 3.0+1.0 CD1 OST (Shiro SAGISU Music from “SHIN EVANGELION”) - First song - "France"

  Guitar 1                    Half-step higher
e |--------------------------|--------------------------
B |--------------------------|--------------------------
G |--------------------------|----0-0---2-2---2-3-2-0---
D |----0-0---2-2---2-3-2-0---|--------------------------
A |--------------------------|--------------------------
E |--------------------------|--------------------------
  Guitar 2 (Half-time)
A |--0-----0-----0-----0-----
  

Scott Pilgrim vs. the World Ruined a Whole Generation of Women

Probably wrong, but funny as hell

  Intro
e |-----------|    -----
B |-----------|    -----
G |-----------|    -----
D |--5--5-9-5-|    --5~-
A |--5--------| x4 --5~-
E |--3--------|    --3~-

Now enable overdrive/fuzz and fuck around with power chords, just strum properly.

  Solo
e |-------------------------------------|----------------------------
B |-------------------------------------|----------------------------
G |--7-7-7-7-5-7-9-7-5-7~--5-(0)--------|-7-7-7-7-5-7-9-7-5-7~--5/12-
D |-------------------------------------|----------------------------
A |-------------------------------------|----------------------------
E |-------------------------------------|----------------------------